The place to be if you want to share or need some tabs.

Moderators: CaptainPado, Bouncers

User avatar
CaptainPado
 
Posts: 3319
Joined: Mon Mar 31, 2003 5:40 pm
Location: in class

Tabs From: Back Again

by CaptainPado Thu Jul 29, 2004 7:13 pm

BACK AGAIN
drop d

intro- 000000000 c d 000000000 c d repeat

verse- 0 00 a# 0 00 a# 0 00 a# 00 repeat

bridge- 0 d# 0 d# 0 d# 0 d 0 d 0 d repeat

c-d d#-d c-d c-d d#-d c-d c-d d#-d c-d 5 3 0 33

chorus- 0 00 d 0 c-d 0 00 d 0 c-d 0 00 d 0 c-d 5 3 0 1 0 1111 repeat


TOUCH
drop d, whole step down


intro-4 1 0 3 0 0 0 0 0 4 1 0 3 0 0 0 0 0 repeat

verse-wah- 0 0 c 0 d 0 f repeat i can show this better when we meet

bridge- 0 0 3 00 repeat x4


chorus-same as intro


middle break- 0-3 0 0 00 0-3 00 repeat then change to 0-6 0 0 00 0-6 00


FACE
drop d whole step down

intro- 0 22 2 4thstring-3 0 22 2 4thstring-2 0 22 2 4thstring-3 0 22 23202 repeatx4

verse- 7 00 03 repeat x 4

bridge- 4231 4231 4231 4231 4231 and so on

bridge 2- 0 22 0 22 022 02

chorus- 02 2 2 cc c dd d 55 3 repeat

FACE SOLO

D-----------------------------------------------------------
A-----------------------------------------------------------
F-----------------------------------------------------------
c-7b8---7b8---7b8---7b8---7h8-7h8-7h8-7h8-7h8-7h8-7h8-7h8-7-
G-----------------------------------------------------------
C-----------------------------------------------------------

D---------------------------------17\3#-
A-21\8/15h16--16---16---16---------
F----------------------------------
c----------------------------------
G----------------------------------
C----------------------------------

D----------------------------------
A----------------------------------
F---7---7--7---6---6--6---5---5--5-
c----------------------------------
G----------------------------------
C----------------------------------

D------------------------------------------------------------------------
A-10-12-10-10-13-10-10-12-10-10-13-10-13-12-10----------------
F------------------------------------------------------------5b7#--------
c--------------------------------------------------------------------------
G--------------------------------------------------------------------------
C-----------------------------------------------------------


b - bend
/ - slide up
\ - slide down
h - hammer on
# - pinch harmonic


NEXT TIME
whole step down, drop d

intro- 0 0 023 00 0 0 023 00
0 0 023 00 0 0 20 a#

verse- 0 3 5 0 3 6 5

bridge- d c a# d c f

chorus- 0 0 0 0 0 0 0 3 3 3 3 6 6 6 6 6
0 0 0 0 0 0 0 3 3 3 3 1 1 1 1 1

6 5 3 5 6 6


breakdown- a# c d a# c d a# c d a# c d#


ONE MORE TIME
intro- em em c em c
verse- em em c em c repeat
bridge- c d em c d b c d em c
chorus- em c g c em c g c
solo- c em c em


HARDENED
drop d tuning

Intro

D---x-x-x-1-x-x-x-1-1-x-x-x-1-x-x-x-1-1---------------------------------------
A---x-x-x-1-x-x-x-1-1-x-x-x-1-x-x-x-1-1---------------------------------------
D------------------------------------------------------------------------------------

Verse

D------------------------------------------------------------------------------------
A-------0-0-0-0-------0-0-0-0-----------------------------------------------------
D---3~-0-0-0-0---3~-0-0-0-0-----------------------------------------------------

Bridge

D------------------------------------------------------------------------------------
A---2-1-0---x-x-x-3--2-1-0---x-x-x-x-3-----------------------------------------
D---2-1-0---x-x-x-3--2-1-0---x-x-x-x-3-----------------------------------------

Pre-Chorus

E---------------------------6--------------------------------------------------------
B-----------------5h6-6-6---6------------------------------------------------------
G------------------------------------------------------------------------------------
D------------------------------------------------------------------------------------
A---x-x-x-0-1----------------------------------------------------------------------
D---x-x-x-0-1----------------------------------------------------------------------

Chorus

D------------------------------------------------------------------------------------
A---5-4-4-3-3-2-2-1-5-4-4-3-3-2-2-1--------------------------------------------
D---5-4-4-3-3-2-2-1-5-4-4-3-3-2-2-1-------------------------------------------

this is played after the 2nd chorus

D---------2-3--------2-3-----------------------------------------------------------
A------2----------2-----------------------------------------------------------------
D---0----------0--------------------------------------------------------------------

Outro

D-----------------3-4----------------4-3~----------------3-4----------------------
A--------------2-------------------2--------------------2---------------------------
D---0-0-1-0------------0-0-1-0-------------0-0-1-0------------------------------

and then

D---x-x-x-1-x-x-x-1-x-x-x-1-1---------------------------------------------------
A---x-x-x-1-x-x-x-1-x-x-x-1-1---------------------------------------------------
D------------------------------------------------------------------------------------
some days all i do is watch the sky...
Return to Guitar Tabs

Who is online

Users browsing this forum: Baidu [Spider] and 2 guests